collapse

* Member Info

 
 
Welcome, Guest. Please login or register.
Did you miss your activation email?

* Like Us on Facebook

Life wasn't hard with Gabe, you just had to drink a lot - Former sig. other, on life with Guitar Gabriel

Author Topic: Tommy McClennan "brown skin girl"  (Read 1473 times)

0 Members and 1 Guest are viewing this topic.

Offline robertbidochon

  • Member
  • Posts: 13
Tommy McClennan "brown skin girl"
« on: April 09, 2007, 07:04:14 AM »
Hello

I have worked today on this great McClennan's song. But, I have some problems with the end of the intro and I need some advices...

I got this for the moment:



E|---2---2--2------5-----5--5---------2--------6----5----5------2-----1b-2---|       
B|---3---3--3---6b----6b----6b-3--3--3-----6b---6b---6b-6b-3---3------------|   
G|---2---2--2-------------------------2--------------------------2------------|   
D|---0------0--(0)--------------------0------0-------------------0-----0------|   
A|---0-----------------------------------0-----------------------0------------|   
E|-----------------------------------------------------------------------------| 


|---3b-----------------0--0--0------1------0--------0--0--0-----1------0---|       
|-------3--3-----------3--3--3------3---3--3--------3--3--3-----3---3--3---|   
|----------------------0--0--0------0----------------0--0--0-----0----------|   
|-------------------------0---------0--------------------0--------0----------|   
|-------------0--1--2-----------2----------2--1--2------------2---------2---|   
|----------------------------------------------------------------------------| 


|------2---2--------5----5--2--2--2--2--2----2-2------5--3--5--3--3------|       
|------3---3-----6b---6b----3--3--3--3--3------3-------------------------|   
|------2---2--------------------2-----2---------2---------2-----------2---|   
|---0------0--0--0--------------0-----0---------0---2-----2-----2-----2---|   
|-------------------------------------------0----0---0-----------0---------|   
|--------------------------------------------------------------------------| 


|---------0--0--0-----1------0---------|       
|---------3--3--3-----3---3--3-----3---|   
|---------0--0--0-----0------------2---|   
|------------0--------0---------0--0---|   
|---1--2-----------2---------2---------|   
|--------------------------------------| 

If someone can hep me that would be cool... :)

thank you
« Last Edit: April 09, 2007, 07:17:43 AM by robertbidochon »

bighollowtwang

  • Guest
Re: Tommy McClennan "brown skin girl"
« Reply #1 on: April 09, 2007, 12:45:42 PM »
I have some problems with the end of the intro and I need some advices...
If you're talking about the last measures of the intro where Tommy is concluding his "mmmmmm" phrase and playing the D chord, to me it sounds like he's playing a repeating figure where he is quickly sliding into the D shape (brushing upwards with his index finger, almost snapping the high E string) and following it with a thumb-index-thumb roll (with the thumb brushing two strings simultaneously on the final triplet), something like this:

slide:
-1-/-2------------------------
-2-/-3------------------------
-1-/-2--------0---0-----------
------------------0-----------
----------0-------------------
------------------------------ and repeat
« Last Edit: April 09, 2007, 12:48:12 PM by bighollowtwang »

Offline robertbidochon

  • Member
  • Posts: 13
Re: Tommy McClennan "brown skin girl"
« Reply #2 on: April 10, 2007, 11:11:42 AM »
maybe that...

-----------2--2--2-----------2--2--2---
------3----3--3--3-----3-----3--3--3---
--------------2------------------2------
------0-------0---------0--------0------
---0-----------------0------------------
----------------------------------------

thank you for your response bighollowtwang, now i'm sure that's a D chord... ;D

 


anything
SimplePortal 2.3.7 © 2008-2021, SimplePortal